ISO-10303-21;
HEADER;
FILE_DESCRIPTION (( 'STEP AP203' ),
    '1' );
FILE_NAME ('250805 STEP 1-400359-00_16983.STEP',
    '2025-08-05T05:56:09',
    ( '' ),
    ( '' ),
    'SwSTEP 2.0',
    'SolidWorks 2024',
    '' );
FILE_SCHEMA (( 'CONFIG_CONTROL_DESIGN' ));
ENDSEC;

DATA;
#1 = PLANE ( 'NONE',  #5 ) ;
#2 = FACE_OUTER_BOUND ( 'NONE', #149, .T. ) ;
#3 = CC_DESIGN_PERSON_AND_ORGANIZATION_ASSIGNMENT ( #41, #148, ( #67 ) ) ;
#4 = EDGE_LOOP ( 'NONE', ( #98 ) ) ;
#5 = AXIS2_PLACEMENT_3D ( 'NONE', #126, #142, #22 ) ;
#6 = VERTEX_POINT ( 'NONE', #90 ) ;
#7 = ADVANCED_FACE ( 'NONE', ( #138, #155 ), #54, .T. ) ;
#8 = CALENDAR_DATE ( 2025, 5, 8 ) ;
#9 = CARTESIAN_POINT ( 'NONE',  ( 10.00000000000000000, -7.589415207398531038E-16, 20.00000000000000355 ) ) ;
#10 = LOCAL_TIME ( 8, 56, 9.000000000000000000, #87 ) ;
#11 = APPROVAL_STATUS ( 'not_yet_approved' ) ;
#12 = COORDINATED_UNIVERSAL_TIME_OFFSET ( 2, 0, .AHEAD. ) ;
#13 = PRODUCT_RELATED_PRODUCT_CATEGORY ( 'detail', '', ( #67 ) ) ;
#14 = APPROVAL_PERSON_ORGANIZATION ( #26, #17, #24 ) ;
#15 = APPROVAL_DATE_TIME ( #151, #133 ) ;
#16 = SHAPE_DEFINITION_REPRESENTATION ( #63, #34 ) ;
#17 = APPROVAL ( #160, 'UNSPECIFIED' ) ;
#18 = UNCERTAINTY_MEASURE_WITH_UNIT (LENGTH_MEASURE( 1.000000000000000082E-05 ), #144, 'distance_accuracy_value', 'NONE');
#19 = CARTESIAN_POINT ( 'NONE',  ( -8.999999999999996447, -7.589415207398531038E-16, 0.000000000000000000 ) ) ;
#20 = DIRECTION ( 'NONE',  ( -1.000000000000000000, -0.000000000000000000, -0.000000000000000000 ) ) ;
#21 = FACE_OUTER_BOUND ( 'NONE', #57, .T. ) ;
#22 = DIRECTION ( 'NONE',  ( 0.000000000000000000, 0.000000000000000000, -1.000000000000000000 ) ) ;
#23 = DIRECTION ( 'NONE',  ( 0.000000000000000000, 0.000000000000000000, 1.000000000000000000 ) ) ;
#24 = APPROVAL_ROLE ( '' ) ;
#25 = TOROIDAL_SURFACE ( 'NONE', #125, 20.85000000000000142, 3.350000000000000533 ) ;
#26 = PERSON_AND_ORGANIZATION ( #128, #161 ) ;
#27 =( NAMED_UNIT ( * ) SI_UNIT ( $, .STERADIAN. ) SOLID_ANGLE_UNIT ( ) );
#28 = SECURITY_CLASSIFICATION_LEVEL ( 'unclassified' ) ;
#29 = PRODUCT_DEFINITION_FORMATION_WITH_SPECIFIED_SOURCE ( 'ANY', '', #67, .NOT_KNOWN. ) ;
#30 = DATE_AND_TIME ( #135, #10 ) ;
#31 = CALENDAR_DATE ( 2025, 5, 8 ) ;
#32 = CARTESIAN_POINT ( 'NONE',  ( 9.999999999999998224, 20.00000000000000355, 0.000000000000000000 ) ) ;
#33 = DIRECTION ( 'NONE',  ( 0.000000000000000000, 0.000000000000000000, 1.000000000000000000 ) ) ;
#34 = ADVANCED_BREP_SHAPE_REPRESENTATION ( '250805 STEP 1-400359-00_16983', ( #88, #89 ), #62 ) ;
#35 = ORIENTED_EDGE ( 'NONE', *, *, #73, .F. ) ;
#36 = AXIS2_PLACEMENT_3D ( 'NONE', #19, #46, #156 ) ;
#37 = EDGE_CURVE ( 'NONE', #6, #6, #39, .T. ) ;
#38 = APPLICATION_PROTOCOL_DEFINITION ( 'international standard', 'config_control_design', 1994, #97 ) ;
#39 = CIRCLE ( 'NONE', #104, 20.00000000000000000 ) ;
#40 = DATE_AND_TIME ( #116, #108 ) ;
#41 = PERSON_AND_ORGANIZATION ( #128, #161 ) ;
#42 = PERSON_AND_ORGANIZATION_ROLE ( 'classification_officer' ) ;
#43 = CLOSED_SHELL ( 'NONE', ( #77, #99, #150, #7, #56 ) ) ;
#44 = CIRCLE ( 'NONE', #153, 20.00000000000000355 ) ;
#45 = PERSON_AND_ORGANIZATION ( #128, #161 ) ;
#46 = DIRECTION ( 'NONE',  ( -1.000000000000000000, -0.000000000000000000, -0.000000000000000000 ) ) ;
#47 = CARTESIAN_POINT ( 'NONE',  ( 3.240370349203930633, -7.589415207398531038E-16, 0.000000000000000000 ) ) ;
#48 = EDGE_CURVE ( 'NONE', #145, #145, #172, .T. ) ;
#49 =( NAMED_UNIT ( * ) PLANE_ANGLE_UNIT ( ) SI_UNIT ( $, .RADIAN. ) );
#50 = AXIS2_PLACEMENT_3D ( 'NONE', #152, #69, #33 ) ;
#51 = DATE_AND_TIME ( #8, #53 ) ;
#52 = CC_DESIGN_DATE_AND_TIME_ASSIGNMENT ( #30, #121, ( #136 ) ) ;
#53 = LOCAL_TIME ( 8, 56, 9.000000000000000000, #131 ) ;
#54 = CYLINDRICAL_SURFACE ( 'NONE', #36, 20.00000000000000355 ) ;
#55 = APPROVAL_PERSON_ORGANIZATION ( #45, #133, #93 ) ;
#56 = ADVANCED_FACE ( 'NONE', ( #21, #100 ), #25, .F. ) ;
#57 = EDGE_LOOP ( 'NONE', ( #113 ) ) ;
#58 = FACE_OUTER_BOUND ( 'NONE', #4, .T. ) ;
#59 = CARTESIAN_POINT ( 'NONE',  ( 10.00000000000000000, -7.589415207398531038E-16, 0.000000000000000000 ) ) ;
#60 = VERTEX_POINT ( 'NONE', #107 ) ;
#61 = DIRECTION ( 'NONE',  ( 1.000000000000000000, 0.000000000000000000, 0.000000000000000000 ) ) ;
#62 =( GEOMETRIC_REPRESENTATION_CONTEXT ( 3 ) GLOBAL_UNCERTAINTY_ASSIGNED_CONTEXT ( ( #18 ) ) GLOBAL_UNIT_ASSIGNED_CONTEXT ( ( #144, #49, #27 ) ) REPRESENTATION_CONTEXT ( 'NONE', 'WORKASPACE' ) );
#63 = PRODUCT_DEFINITION_SHAPE ( 'NONE', 'NONE',  #68 ) ;
#64 = APPROVAL_DATE_TIME ( #106, #162 ) ;
#65 = COORDINATED_UNIVERSAL_TIME_OFFSET ( 2, 0, .AHEAD. ) ;
#66 = CC_DESIGN_DATE_AND_TIME_ASSIGNMENT ( #40, #118, ( #68 ) ) ;
#67 = PRODUCT ( '250805 STEP 1-400359-00_16983', '250805 STEP 1-400359-00_16983', '', ( #75 ) ) ;
#68 = PRODUCT_DEFINITION ( 'UNKNOWN', '', #29, #102 ) ;
#69 = DIRECTION ( 'NONE',  ( -1.000000000000000000, -0.000000000000000000, -0.000000000000000000 ) ) ;
#70 = DIRECTION ( 'NONE',  ( -1.000000000000000000, -0.000000000000000000, -0.000000000000000000 ) ) ;
#71 = EDGE_LOOP ( 'NONE', ( #124 ) ) ;
#72 = EDGE_LOOP ( 'NONE', ( #112 ) ) ;
#73 = EDGE_CURVE ( 'NONE', #60, #60, #119, .T. ) ;
#74 = PERSON_AND_ORGANIZATION ( #128, #161 ) ;
#75 = MECHANICAL_CONTEXT ( 'NONE', #97, 'mechanical' ) ;
#76 = VERTEX_POINT ( 'NONE', #9 ) ;
#77 = ADVANCED_FACE ( 'NONE', ( #114 ), #1, .F. ) ;
#78 = LOCAL_TIME ( 8, 56, 9.000000000000000000, #65 ) ;
#79 = APPLICATION_CONTEXT ( 'configuration controlled 3d designs of mechanical parts and assemblies' ) ;
#80 = APPROVAL_STATUS ( 'not_yet_approved' ) ;
#81 = AXIS2_PLACEMENT_3D ( 'NONE', #86, #96, #154 ) ;
#82 = DIRECTION ( 'NONE',  ( -1.000000000000000000, 0.000000000000000000, -0.000000000000000000 ) ) ;
#83 = CYLINDRICAL_SURFACE ( 'NONE', #50, 20.00000000000000000 ) ;
#84 = EDGE_LOOP ( 'NONE', ( #123 ) ) ;
#85 = DIRECTION ( 'NONE',  ( 0.000000000000000000, 0.000000000000000000, 1.000000000000000000 ) ) ;
#86 = CARTESIAN_POINT ( 'NONE',  ( -9.999999999999998224, -7.589415207398531038E-16, 0.000000000000000000 ) ) ;
#87 = COORDINATED_UNIVERSAL_TIME_OFFSET ( 2, 0, .AHEAD. ) ;
#88 = MANIFOLD_SOLID_BREP ( 'DeleteFace7', #43 ) ;
#89 = AXIS2_PLACEMENT_3D ( 'NONE', #130, #105, #61 ) ;
#90 = CARTESIAN_POINT ( 'NONE',  ( -3.240370349203931521, -7.589415207398531038E-16, 20.00000000000000000 ) ) ;
#91 = PERSON_AND_ORGANIZATION_ROLE ( 'creator' ) ;
#92 = APPROVAL_ROLE ( '' ) ;
#93 = APPROVAL_ROLE ( '' ) ;
#94 = APPROVAL_PERSON_ORGANIZATION ( #132, #162, #92 ) ;
#95 = PLANE ( 'NONE',  #141 ) ;
#96 = DIRECTION ( 'NONE',  ( -1.000000000000000000, -0.000000000000000000, -0.000000000000000000 ) ) ;
#97 = APPLICATION_CONTEXT ( 'configuration controlled 3d designs of mechanical parts and assemblies' ) ;
#98 = ORIENTED_EDGE ( 'NONE', *, *, #37, .T. ) ;
#99 = ADVANCED_FACE ( 'NONE', ( #2, #58 ), #83, .T. ) ;
#100 = FACE_OUTER_BOUND ( 'NONE', #84, .T. ) ;
#101 = APPROVAL_DATE_TIME ( #51, #17 ) ;
#102 = DESIGN_CONTEXT ( 'detailed design', #79, 'design' ) ;
#103 = APPLICATION_PROTOCOL_DEFINITION ( 'international standard', 'config_control_design', 1994, #79 ) ;
#104 = AXIS2_PLACEMENT_3D ( 'NONE', #168, #20, #127 ) ;
#105 = DIRECTION ( 'NONE',  ( 0.000000000000000000, 0.000000000000000000, 1.000000000000000000 ) ) ;
#106 = DATE_AND_TIME ( #146, #111 ) ;
#107 = CARTESIAN_POINT ( 'NONE',  ( -9.999999999999998224, -7.589415207398531038E-16, 20.00000000000000000 ) ) ;
#108 = LOCAL_TIME ( 8, 56, 9.000000000000000000, #12 ) ;
#109 = CC_DESIGN_APPROVAL ( #133, ( #136 ) ) ;
#110 = DIRECTION ( 'NONE',  ( 0.000000000000000000, 0.000000000000000000, 1.000000000000000000 ) ) ;
#111 = LOCAL_TIME ( 8, 56, 9.000000000000000000, #170 ) ;
#112 = ORIENTED_EDGE ( 'NONE', *, *, #48, .F. ) ;
#113 = ORIENTED_EDGE ( 'NONE', *, *, #37, .F. ) ;
#114 = FACE_OUTER_BOUND ( 'NONE', #166, .T. ) ;
#115 = CC_DESIGN_PERSON_AND_ORGANIZATION_ASSIGNMENT ( #159, #91, ( #29 ) ) ;
#116 = CALENDAR_DATE ( 2025, 5, 8 ) ;
#117 = PERSON_AND_ORGANIZATION ( #128, #161 ) ;
#118 = DATE_TIME_ROLE ( 'creation_date' ) ;
#119 = CIRCLE ( 'NONE', #81, 20.00000000000000000 ) ;
#120 = EDGE_CURVE ( 'NONE', #76, #76, #44, .T. ) ;
#121 = DATE_TIME_ROLE ( 'classification_date' ) ;
#122 = CC_DESIGN_SECURITY_CLASSIFICATION ( #136, ( #29 ) ) ;
#123 = ORIENTED_EDGE ( 'NONE', *, *, #48, .T. ) ;
#124 = ORIENTED_EDGE ( 'NONE', *, *, #120, .F. ) ;
#125 = AXIS2_PLACEMENT_3D ( 'NONE', #167, #70, #85 ) ;
#126 = CARTESIAN_POINT ( 'NONE',  ( -9.999999999999998224, 12.50000000000000000, 0.000000000000000000 ) ) ;
#127 = DIRECTION ( 'NONE',  ( 0.000000000000000000, 0.000000000000000000, 1.000000000000000000 ) ) ;
#128 = PERSON ( 'UNSPECIFIED', 'UNSPECIFIED', 'UNSPECIFIED', ('UNSPECIFIED'), ('UNSPECIFIED'), ('UNSPECIFIED') ) ;
#129 = CC_DESIGN_PERSON_AND_ORGANIZATION_ASSIGNMENT ( #117, #42, ( #136 ) ) ;
#130 = CARTESIAN_POINT ( 'NONE',  ( 0.000000000000000000, 0.000000000000000000, 0.000000000000000000 ) ) ;
#131 = COORDINATED_UNIVERSAL_TIME_OFFSET ( 2, 0, .AHEAD. ) ;
#132 = PERSON_AND_ORGANIZATION ( #128, #161 ) ;
#133 = APPROVAL ( #80, 'UNSPECIFIED' ) ;
#134 = CARTESIAN_POINT ( 'NONE',  ( 3.240370349203930633, -7.589415207398531038E-16, 20.00000000000000000 ) ) ;
#135 = CALENDAR_DATE ( 2025, 5, 8 ) ;
#136 = SECURITY_CLASSIFICATION ( '', '', #28 ) ;
#137 = AXIS2_PLACEMENT_3D ( 'NONE', #47, #140, #110 ) ;
#138 = FACE_OUTER_BOUND ( 'NONE', #72, .T. ) ;
#139 = EDGE_LOOP ( 'NONE', ( #165 ) ) ;
#140 = DIRECTION ( 'NONE',  ( -1.000000000000000000, -0.000000000000000000, -0.000000000000000000 ) ) ;
#141 = AXIS2_PLACEMENT_3D ( 'NONE', #32, #82, #171 ) ;
#142 = DIRECTION ( 'NONE',  ( 1.000000000000000000, 0.000000000000000000, 0.000000000000000000 ) ) ;
#143 = DIRECTION ( 'NONE',  ( -1.000000000000000000, -0.000000000000000000, -0.000000000000000000 ) ) ;
#144 =( LENGTH_UNIT ( ) NAMED_UNIT ( * ) SI_UNIT ( .MILLI., .METRE. ) );
#145 = VERTEX_POINT ( 'NONE', #134 ) ;
#146 = CALENDAR_DATE ( 2025, 5, 8 ) ;
#147 = PERSON_AND_ORGANIZATION ( #128, #161 ) ;
#148 = PERSON_AND_ORGANIZATION_ROLE ( 'design_owner' ) ;
#149 = EDGE_LOOP ( 'NONE', ( #35 ) ) ;
#150 = ADVANCED_FACE ( 'NONE', ( #169 ), #95, .F. ) ;
#151 = DATE_AND_TIME ( #31, #78 ) ;
#152 = CARTESIAN_POINT ( 'NONE',  ( -8.999999999999996447, -7.589415207398531038E-16, 0.000000000000000000 ) ) ;
#153 = AXIS2_PLACEMENT_3D ( 'NONE', #59, #143, #23 ) ;
#154 = DIRECTION ( 'NONE',  ( 0.000000000000000000, 0.000000000000000000, 1.000000000000000000 ) ) ;
#155 = FACE_OUTER_BOUND ( 'NONE', #139, .T. ) ;
#156 = DIRECTION ( 'NONE',  ( 0.000000000000000000, 0.000000000000000000, 1.000000000000000000 ) ) ;
#157 = PERSON_AND_ORGANIZATION_ROLE ( 'design_supplier' ) ;
#158 = PERSON_AND_ORGANIZATION_ROLE ( 'creator' ) ;
#159 = PERSON_AND_ORGANIZATION ( #128, #161 ) ;
#160 = APPROVAL_STATUS ( 'not_yet_approved' ) ;
#161 = ORGANIZATION ( 'UNSPECIFIED', 'UNSPECIFIED', '' ) ;
#162 = APPROVAL ( #11, 'UNSPECIFIED' ) ;
#163 = CC_DESIGN_APPROVAL ( #162, ( #29 ) ) ;
#164 = CC_DESIGN_PERSON_AND_ORGANIZATION_ASSIGNMENT ( #74, #158, ( #68 ) ) ;
#165 = ORIENTED_EDGE ( 'NONE', *, *, #120, .T. ) ;
#166 = EDGE_LOOP ( 'NONE', ( #175 ) ) ;
#167 = CARTESIAN_POINT ( 'NONE',  ( -7.164183775012017408E-16, 0.000000000000000000, 0.000000000000000000 ) ) ;
#168 = CARTESIAN_POINT ( 'NONE',  ( -3.240370349203931521, -7.589415207398531038E-16, 0.000000000000000000 ) ) ;
#169 = FACE_OUTER_BOUND ( 'NONE', #71, .T. ) ;
#170 = COORDINATED_UNIVERSAL_TIME_OFFSET ( 2, 0, .AHEAD. ) ;
#171 = DIRECTION ( 'NONE',  ( -0.000000000000000000, 0.000000000000000000, 1.000000000000000000 ) ) ;
#172 = CIRCLE ( 'NONE', #137, 20.00000000000000000 ) ;
#173 = CC_DESIGN_APPROVAL ( #17, ( #68 ) ) ;
#174 = CC_DESIGN_PERSON_AND_ORGANIZATION_ASSIGNMENT ( #147, #157, ( #29 ) ) ;
#175 = ORIENTED_EDGE ( 'NONE', *, *, #73, .T. ) ;
ENDSEC;
END-ISO-10303-21;
